心酸 – 林宥嘉 Guitar Tab

心酸 is a song from 林宥嘉’s (Yoga Lin) sophomore album, 感官/世界 (Senses Around). The music is by 丁世光 and the lyrics by 施人诚.

The intro, interlude and ending, which I didn’t include in the tab, basically use the same four chords – F, Dm, Bb and C. Only difference is how many bars each chord is played. It’s easy to figure out by listening to and playing along with the song.

Since I’ve more or less figured out the intro bit, I thought I’d post it up. Obviously it’s hard to indicate the length of each note in tabulature, so do listen to the song for the timing.

Have fun.

Intro

E----1-0------1-0------1-0--------1-0---------------
B--------1--------1--------1------------1-----------
G-------------------------------2-----2-------------
D--3--------3--------3--------3---------------------
A---------------------------------------------------
E---------------------------------------------------

E----------------------------------1------1--6-8-9--
B------3---1----------3---1-------------------------
G--------------2------------2-----------3-----------
D--0-0---0---0----0-0---0------3-3----3-------------
A---------------------------------------------------
E---------------------------------------------------

__________

__________

Listen to the song:

Advertisements

Leave a Reply

Fill in your details below or click an icon to log in:

WordPress.com Logo

You are commenting using your WordPress.com account. Log Out / Change )

Twitter picture

You are commenting using your Twitter account. Log Out / Change )

Facebook photo

You are commenting using your Facebook account. Log Out / Change )

Google+ photo

You are commenting using your Google+ account. Log Out / Change )

Connecting to %s