몇 년 후에 A Few Years Later – 블락비 Block B Guitar Tab

몇 년 후에 (or A Few Years Later) is the lead single to be released from Block B’s latest album, “Blooming Period“.

Since the song opens with a guitar arrangement, I was naturally drawn to it. And I wanted to be able to play it on my guitar. Thus began my quest to figure out the chords for the song.

It wasn’t difficult to work out the basic chord structure of the song – which is essentially Bb, Gm, Eb and F.

What took longer were the intro and outro which have just guitar in the arrangements – I wanted to get them right – as well as, a couple of chords in the climax (P.O’s rap part) and right after the final vocal line. Those half-diminished chords, yes, they were the difficult ones.

Good thing, the instrumental version of the track provided a really useful reference, where I could focus on just listening to the song arrangement.

__________

__________

The song uses jazz chords, so go ahead and add the sevenths to the basic chords. If you want to be precise and play the guitar arrangements in the intro and outro, here are the tabs:

Intro

E--------------------------------------------------
B--------6------------3----------1--------------1--
G------7---7--------5---5----------3--------2h3----
D----7----------4-4----------3-3--------3-3--------
A--------------------------------------------------
E--6-----------------------------------------------
E--------------------------------------------------
B----------6------------3----------1---------------
G------6h7---7--------5---5----------3------3------
D----7------------4-4----------3-3--------3-3------
A--------------------------------------------------
E--6-----------------------------------------------

 

Outro

E----------------------------------------------------
B--------6------------3----------1--------------1----
G------7---7--------5---5----------3--------2h3------
D----7----------4-4----------3-3--------3-3----------
A----------------------------------------------------
E--6-------------------------------------------------
E----------------------------------------------------
B----------6------------3----------1-----------------
G------6h7---7--------5---5----------3--------3p2----
D----7------------4-4----------3-3--------3-3-----3--
A----------------------------------------------------
E--6-------------------------------------------------

 

For the music video, English translation of the lyrics and Zico’s explanation of the creative process and intent behind the song, check out my earlier review.

Lastly, here’s a video of Block B’s live performance of the song:

Advertisements

2 thoughts on “몇 년 후에 A Few Years Later – 블락비 Block B Guitar Tab

  1. Pingback: Album Review: Blooming Period – 블락비 Block B | Music Rambling

  2. Pingback: Round-up 2016: Year in music | Music Rambling

Leave a Reply

Fill in your details below or click an icon to log in:

WordPress.com Logo

You are commenting using your WordPress.com account. Log Out / Change )

Twitter picture

You are commenting using your Twitter account. Log Out / Change )

Facebook photo

You are commenting using your Facebook account. Log Out / Change )

Google+ photo

You are commenting using your Google+ account. Log Out / Change )

Connecting to %s